                                                                        S      1
,,10HSJxx02.ipt,27HNo Iges File Name specified,22HAutodesk Inventor 2011G      1
,37HAutoDesk Inventor Iges Exporter R2011,32,38,6,99,15,10HSJxx02.ipt,  G      2
1.0D0,1,2HIN,1,.08D0,15H20101112.125937,3.93700787401575D-4,10000.0D0,  G      3
13HAdministrator,,11,0,,;                                               G      4
     406       1       0       0       1       0       0       000000000D      1
     406       0       0       1       3                               0D      2
     116       2       0       0       0       0       0       000010000D      3
     116       0       0       1       0                               0D      4
     123       3       0       0       0       0       0       000010200D      5
     123       0       0       1       0                               0D      6
     192       4       0       0       0       0       0       000010000D      7
     192       0       0       1       1                               0D      8
     123       5       0       0       0       0       0       000010200D      9
     123       0       0       1       0                               0D     10
     504       6       0       0       0       0       0       000010001D     11
     504       0       0       4       1                               0D     12
     502      10       0       0       0       0       0       000010000D     13
     502       0       0       8       1                               0D     14
     110      18       0       0       0       0       0       000010000D     15
     110       0       0       2       0                               0D     16
     100      20       0       0       0       0      19       000010000D     17
     100       0       0       2       0                               0D     18
     124      22       0       0       0       0       0       000000000D     19
     124       0       0       2       0                               0D     20
     110      24       0       0       0       0       0       000010000D     21
     110       0       0       2       0                               0D     22
     100      26       0       0       0       0      25       000010000D     23
     100       0       0       2       0                               0D     24
     124      28       0       0       0       0       0       000000000D     25
     124       0       0       2       0                               0D     26
     508      30       0       0       0       0       0       000010000D     27
     508       0       0       1       1                               0D     28
     510      31       0       0       0       0       0       000010000D     29
     510       0    -127       1       1                               0D     30
     120      32       0       0       0       0       0       000010000D     31
     120       0       0       1       0                               0D     32
     100      33       0       0       0       0      35       000010000D     33
     100       0       0       1       0                               0D     34
     124      34       0       0       0       0       0       000000000D     35
     124       0       0       2       0                               0D     36
     110      36       0       0       0       0       0       001010000D     37
     110       0       0       2       0                               0D     38
     100      38       0       0       0       0      41       000010000D     39
     100       0       0       2       0                               0D     40
     124      40       0       0       0       0       0       000000000D     41
     124       0       0       2       0                               0D     42
     100      42       0       0       0       0      45       000010000D     43
     100       0       0       2       0                               0D     44
     124      44       0       0       0       0       0       000000000D     45
     124       0       0       2       0                               0D     46
     100      46       0       0       0       0      49       000010000D     47
     100       0       0       2       0                               0D     48
     124      48       0       0       0       0       0       000000000D     49
     124       0       0       2       0                               0D     50
     100      50       0       0       0       0      25       000010000D     51
     100       0       0       2       0                               0D     52
     508      52       0       0       0       0       0       000010000D     53
     508       0       0       1       1                               0D     54
     510      53       0       0       0       0       0       000010000D     55
     510       0    -127       1       1                               0D     56
     128      54       0       0       0       0       0       000010000D     57
     128       0       0      36       0                               0D     58
     100      90       0       0       0       0      45       000010000D     59
     100       0       0       2       0                               0D     60
     100      92       0       0       0       0      45       000010000D     61
     100       0       0       2       0                               0D     62
     508      94       0       0       0       0       0       000010000D     63
     508       0       0       1       1                               0D     64
     510      95       0       0       0       0       0       000010000D     65
     510       0    -127       1       1                               0D     66
     120      96       0       0       0       0       0       000010000D     67
     120       0       0       1       0                               0D     68
     100      97       0       0       0       0      35       000010000D     69
     100       0       0       1       0                               0D     70
     110      98       0       0       0       0       0       001010000D     71
     110       0       0       2       0                               0D     72
     100     100       0       0       0       0      25       000010000D     73
     100       0       0       2       0                               0D     74
     100     102       0       0       0       0      25       000010000D     75
     100       0       0       2       0                               0D     76
     508     104       0       0       0       0       0       000010000D     77
     508       0       0       2       1                               0D     78
     510     106       0       0       0       0       0       000010000D     79
     510       0    -127       1       1                               0D     80
     116     107       0       0       0       0       0       000010000D     81
     116       0       0       1       0                               0D     82
     123     108       0       0       0       0       0       000010200D     83
     123       0       0       1       0                               0D     84
     192     109       0       0       0       0       0       000010000D     85
     192       0       0       1       1                               0D     86
     123     110       0       0       0       0       0       000010200D     87
     123       0       0       1       0                               0D     88
     100     111       0       0       0       0      25       000010000D     89
     100       0       0       2       0                               0D     90
     100     113       0       0       0       0      19       000010000D     91
     100       0       0       2       0                               0D     92
     508     115       0       0       0       0       0       000010000D     93
     508       0       0       1       1                               0D     94
     510     116       0       0       0       0       0       000010000D     95
     510       0    -127       1       1                               0D     96
     116     117       0       0       0       0       0       000010000D     97
     116       0       0       1       0                               0D     98
     123     118       0       0       0       0       0       000010200D     99
     123       0       0       1       0                               0D    100
     190     119       0       0       0       0       0       000010000D    101
     190       0       0       1       1                               0D    102
     123     120       0       0       0       0       0       000010200D    103
     123       0       0       1       0                               0D    104
     508     121       0       0       0       0       0       000010000D    105
     508       0       0       1       1                               0D    106
     508     122       0       0       0       0       0       000010000D    107
     508       0       0       1       1                               0D    108
     510     123       0       0       0       0       0       000010000D    109
     510       0    -127       1       1                               0D    110
     116     124       0       0       0       0       0       000010000D    111
     116       0       0       1       0                               0D    112
     123     125       0       0       0       0       0       000010200D    113
     123       0       0       1       0                               0D    114
     190     126       0       0       0       0       0       000010000D    115
     190       0       0       1       1                               0D    116
     123     127       0       0       0       0       0       000010200D    117
     123       0       0       1       0                               0D    118
     508     128       0       0       0       0       0       000010000D    119
     508       0       0       1       1                               0D    120
     510     129       0       0       0       0       0       000010000D    121
     510       0    -127       1       1                               0D    122
     514     130       0       0       0       0       0       000010000D    123
     514       0       0       1       1                               0D    124
     186     131       0       0       1       0       0       000000000D    125
     186       0       0       1       0                  Solid1       0D    126
     314     132       0       0       0       0       0       000000000D    127
     314       0       8       1       0                               0D    128
406,2,0,6HSJxx02;                                                      1P      1
116,-.21425D0,-2.14935464404093D-4,.21425D0,0;                         3P      2
123,-5.87747289884639D-16,1.0D0,0.0D0;                                 5P      3
192,3,5,.15625D0,9;                                                    7P      4
123,1.0D0,0.0D0,0.0D0;                                                 9P      5
504,14,15,13,1,13,2,17,13,3,13,1,21,13,3,13,4,23,13,2,13,4,39,        11P      6
13,5,13,6,43,13,7,13,5,47,13,7,13,8,51,13,8,13,6,59,13,9,13,7,        11P      7
61,13,5,13,9,73,13,6,13,10,75,13,10,13,8,89,13,4,13,2,91,13,1,        11P      8
13,3;                                                                 11P      9
502,10,-.058D0,-3.51725429184274D-17,.21425D0,-.058D0,.02D0,          13P     10
.21425D0,-.3705D0,-2.18803950242547D-16,.21425D0,-.3705D0,            13P     11
1.99999999999999D-2,.21425D0,-.21425D0,.033479262672811D0,            13P     12
.337004825835141D0,-.21425D0,1.99999999999999D-2,                     13P     13
.369120913989684D0,-.21425D0,.033479262672811D0,                      13P     14
9.14951741648589D-2,-.21425D0,1.99999999999999D-2,                    13P     15
5.93790860103162D-2,-.091495174164859D0,.033479262672811D0,           13P     16
.21425D0,-5.93790860103162D-2,.02D0,.21425D0;                         13P     17
110,-.058D0,-3.51552554428425D-17,.21425D0,-.058D0,.02D0,             15P     18
.21425D0;                                                             15P     19
100,0.0D0,0.0D0,0.0D0,-.15625D0,1.91351062366774D-17,.15625D0,        17P     20
-3.82702124733548D-17;                                                17P     21
124,1.0D0,0.0D0,0.0D0,-.21425D0,0.0D0,0.0D0,-1.0D0,                   19P     22
-1.25921118457962D-16,0.0D0,1.0D0,0.0D0,.21425D0;                     19P     23
110,-.3705D0,-2.18791998407575D-16,.21425D0,-.3705D0,                 21P     24
1.99999999999999D-2,.21425D0;                                         21P     25
100,0.0D0,0.0D0,0.0D0,.15625D0,0.0D0,-.15625D0,                       23P     26
1.91351062366774D-17;                                                 23P     27
124,1.0D0,0.0D0,0.0D0,-.21425D0,0.0D0,0.0D0,1.0D0,.02D0,0.0D0,        25P     28
-1.0D0,0.0D0,.21425D0;                                                25P     29
508,4,0,11,1,0,0,0,11,2,0,0,0,11,3,1,0,0,11,4,0,0;                    27P     30
510,7,1,1,27;                                                         29P     31
120,37,33,0.0D0,6.28318530717959D0;                                   31P     32
100,0.0D0,0.0D0,0.0D0,.045D0,0.0D0,.045D0,0.0D0;                      33P     33
124,0.0D0,0.0D0,1.0D0,-.21425D0,0.0D0,-1.0D0,0.0D0,                   35P     34
6.49999999999999D-2,1.0D0,0.0D0,0.0D0,.369120913989684D0;             35P     35
110,-.21425D0,6.49999999999999D-2,.21425D0,-.21425D0,-.935D0,         37P     36
.21425D0;                                                             37P     37
100,0.0D0,0.0D0,0.0D0,-3.21160881545427D-2,-3.15207373271889D-2,      39P     38
-4.82343947807503D-17,-.045D0;                                        39P     39
124,0.0D0,0.0D0,-1.0D0,-.21425D0,0.0D0,1.0D0,0.0D0,                   41P     40
6.49999999999999D-2,1.0D0,0.0D0,0.0D0,.369120913989684D0;             41P     41
100,0.0D0,0.0D0,0.0D0,7.51656522694482D-18,.122754825835141D0,        43P     42
-2.25496956808344D-17,-.122754825835141D0;                            43P     43
124,1.0D0,0.0D0,0.0D0,-.21425D0,0.0D0,0.0D0,1.0D0,                    45P     44
.033479262672811D0,0.0D0,-1.0D0,0.0D0,.21425D0;                       45P     45
100,0.0D0,0.0D0,0.0D0,-3.21160881545427D-2,-3.15207373271889D-2,      47P     46
-4.82343947807503D-17,-.045D0;                                        47P     47
124,0.0D0,0.0D0,1.0D0,-.21425D0,0.0D0,1.0D0,0.0D0,                    49P     48
6.49999999999999D-2,-1.0D0,0.0D0,0.0D0,5.93790860103162D-2;           49P     49
100,0.0D0,0.0D0,0.0D0,-1.28069895189947D-16,.154870913989684D0,       51P     50
-2.84493253647737D-17,-.154870913989684D0;                            51P     51
508,4,0,11,5,0,0,0,11,6,0,0,0,11,7,1,0,0,11,8,1,0;                    53P     52
510,31,1,1,53;                                                        55P     53
128,4,4,2,2,0,0,0,0,0,-.794753335572163D0,-.794753335572163D0,        57P     54
-.794753335572163D0,1.66533453693773D-16,1.66533453693773D-16,        57P     55
.794753335572164D0,.794753335572164D0,.794753335572164D0,0.0D0,       57P     56
0.0D0,0.0D0,.794753335572163D0,.794753335572163D0,                    57P     57
1.58950667114433D0,1.58950667114433D0,1.58950667114433D0,1.0D0,       57P     58
.922079397203163D0,1.0D0,.922079397203161D0,1.0D0,                    57P     59
.92207939720316D0,.850230414746546D0,.92207939720316D0,               57P     60
.850230414746544D0,.92207939720316D0,1.0D0,.922079397203163D0,        57P     61
1.0D0,.922079397203161D0,1.0D0,.92207939720316D0,                     57P     62
.850230414746546D0,.92207939720316D0,.850230414746544D0,              57P     63
.92207939720316D0,1.0D0,.922079397203163D0,1.0D0,                     57P     64
.922079397203161D0,1.0D0,-.128265052871238D0,                         57P     65
-2.60899573148736D-3,.337004825835141D0,-9.14951741648588D-2,         57P     66
.033479262672811D0,.286439152320395D0,-9.14951741648588D-2,           57P     67
.033479262672811D0,.21425D0,-9.14951741648588D-2,                     57P     68
.033479262672811D0,.142060847679605D0,-.128265052871238D0,            57P     69
-2.60899573148733D-3,9.14951741648589D-2,-.163684326485254D0,         57P     70
.033479262672811D0,.337004825835141D0,-.142060847679605D0,            57P     71
8.50000000000001D-2,.286439152320395D0,-.142060847679605D0,           57P     72
8.50000000000001D-2,.21425D0,-.142060847679605D0,                     57P     73
8.50000000000001D-2,.142060847679605D0,-.163684326485254D0,           57P     74
.033479262672811D0,9.14951741648589D-2,-.21425D0,                     57P     75
3.34792626728109D-2,.337004825835141D0,-.21425D0,.085D0,              57P     76
.286439152320395D0,-.21425D0,.085D0,.21425D0,-.21425D0,.085D0,        57P     77
.142060847679605D0,-.21425D0,.033479262672811D0,                      57P     78
9.14951741648589D-2,-.264815673514746D0,3.34792626728109D-2,          57P     79
.337004825835141D0,-.286439152320395D0,.085D0,                        57P     80
.286439152320395D0,-.286439152320395D0,.085D0,.21425D0,               57P     81
-.286439152320395D0,.085D0,.142060847679605D0,                        57P     82
-.264815673514746D0,3.34792626728109D-2,9.14951741648589D-2,          57P     83
-.300234947128762D0,-2.60899573148739D-3,.337004825835141D0,          57P     84
-.337004825835141D0,3.34792626728109D-2,.286439152320395D0,           57P     85
-.337004825835141D0,3.34792626728109D-2,.21425D0,                     57P     86
-.337004825835141D0,3.34792626728109D-2,.142060847679605D0,           57P     87
-.300234947128762D0,-2.60899573148739D-3,9.14951741648589D-2,         57P     88
-.794753335572163D0,.794753335572164D0,0.0D0,1.58950667114433D0;      57P     89
100,0.0D0,0.0D0,0.0D0,.122754825835141D0,0.0D0,                       59P     90
7.51656522694482D-18,.122754825835141D0;                              59P     91
100,0.0D0,0.0D0,0.0D0,-2.25496956808344D-17,-.122754825835141D0,      61P     92
.122754825835141D0,-3.00662609077793D-17;                             61P     93
508,3,0,11,9,1,0,0,11,6,1,0,0,11,10,1,0;                              63P     94
510,57,1,1,63;                                                        65P     95
120,71,69,0.0D0,6.28318530717959D0;                                   67P     96
100,0.0D0,0.0D0,0.0D0,.045D0,0.0D0,.045D0,0.0D0;                      69P     97
110,-.21425D0,6.49999999999999D-2,.21425D0,-.21425D0,-.935D0,         71P     98
.21425D0;                                                             71P     99
100,0.0D0,0.0D0,0.0D0,-2.84493253647737D-17,-.154870913989684D0,      73P    100
.154870913989684D0,-3.79324338196983D-17;                             73P    101
100,0.0D0,0.0D0,0.0D0,.154870913989684D0,0.0D0,                       75P    102
-1.28069895189947D-16,.154870913989684D0;                             75P    103
508,6,0,11,5,1,0,0,11,11,1,0,0,11,12,1,0,0,11,7,0,0,0,11,9,0,0,       77P    104
0,11,10,0,0;                                                          77P    105
510,67,1,1,77;                                                        79P    106
116,-.21425D0,-2.14935464404093D-4,.21425D0,0;                        81P    107
123,-5.87747289884639D-16,1.0D0,0.0D0;                                83P    108
192,81,83,.15625D0,87;                                                85P    109
123,1.0D0,0.0D0,0.0D0;                                                87P    110
100,0.0D0,0.0D0,0.0D0,-.15625D0,1.91351062366774D-17,.15625D0,        89P    111
-3.82702124733548D-17;                                                89P    112
100,0.0D0,0.0D0,0.0D0,.15625D0,0.0D0,-.15625D0,                       91P    113
1.91351062366774D-17;                                                 91P    114
508,4,0,11,1,1,0,0,11,13,0,0,0,11,3,0,0,0,11,14,0,0;                  93P    115
510,85,1,1,93;                                                        95P    116
116,-.4285D0,1.99999999999999D-2,0.0D0,0;                             97P    117
123,0.0D0,1.0D0,0.0D0;                                                99P    118
190,97,99,103;                                                       101P    119
123,0.0D0,0.0D0,1.0D0;                                               103P    120
508,2,0,11,4,1,0,0,11,13,1,0;                                        105P    121
508,3,0,11,12,0,0,0,11,11,0,0,0,11,8,0,0;                            107P    122
510,101,2,1,105,107;                                                 109P    123
116,0.0D0,0.0D0,0.0D0,0;                                             111P    124
123,0.0D0,-1.0D0,0.0D0;                                              113P    125
190,111,113,117;                                                     115P    126
123,0.0D0,0.0D0,-1.0D0;                                              117P    127
508,2,0,11,2,1,0,0,11,14,1,0;                                        119P    128
510,115,1,1,119;                                                     121P    129
514,7,29,1,55,1,65,1,79,1,95,1,109,1,121,1;                          123P    130
186,123,1,0;                                                         125P    131
314,75.2941012382507D0,75.2941012382507D0,75.2941012382507D0,;       127P    132
S      1G      4D    128P    132                                        T      1
