                                                                        S      1
,,10HSJxx53.ipt,27HNo Iges File Name specified,22HAutodesk Inventor 2011G      1
,37HAutoDesk Inventor Iges Exporter R2011,32,38,6,99,15,10HSJxx53.ipt,  G      2
1.0D0,1,2HIN,1,.08D0,15H20101112.160307,3.93700787401575D-4,10000.0D0,  G      3
13HAdministrator,,11,0,,;                                               G      4
     406       1       0       0       1       0       0       000000000D      1
     406       0       0       1       3                               0D      2
     116       2       0       0       0       0       0       000010000D      3
     116       0       0       1       0                               0D      4
     123       3       0       0       0       0       0       000010200D      5
     123       0       0       1       0                               0D      6
     194       4       0       0       0       0       0       000010000D      7
     194       0       0       1       1                               0D      8
     123       5       0       0       0       0       0       000010200D      9
     123       0       0       1       0                               0D     10
     504       6       0       0       0       0       0       000010001D     11
     504       0       0       6       1                               0D     12
     502      12       0       0       0       0       0       000010000D     13
     502       0       0      13       1                               0D     14
     110      25       0       0       0       0       0       000010000D     15
     110       0       0       2       0                               0D     16
     100      27       0       0       0       0      19       000010000D     17
     100       0       0       2       0                               0D     18
     124      29       0       0       0       0       0       000000000D     19
     124       0       0       2       0                               0D     20
     110      31       0       0       0       0       0       000010000D     21
     110       0       0       2       0                               0D     22
     100      33       0       0       0       0      25       000010000D     23
     100       0       0       2       0                               0D     24
     124      35       0       0       0       0       0       000000000D     25
     124       0       0       2       0                               0D     26
     508      37       0       0       0       0       0       000010000D     27
     508       0       0       1       1                               0D     28
     510      38       0       0       0       0       0       000010000D     29
     510       0    -197       1       1                               0D     30
     116      39       0       0       0       0       0       000010000D     31
     116       0       0       2       0                               0D     32
     123      41       0       0       0       0       0       000010200D     33
     123       0       0       1       0                               0D     34
     190      42       0       0       0       0       0       000010000D     35
     190       0       0       1       1                               0D     36
     123      43       0       0       0       0       0       000010200D     37
     123       0       0       1       0                               0D     38
     110      44       0       0       0       0       0       000010000D     39
     110       0       0       2       0                               0D     40
     110      46       0       0       0       0       0       000010000D     41
     110       0       0       2       0                               0D     42
     110      48       0       0       0       0       0       000010000D     43
     110       0       0       2       0                               0D     44
     110      50       0       0       0       0       0       000010000D     45
     110       0       0       2       0                               0D     46
     508      52       0       0       0       0       0       000010000D     47
     508       0       0       1       1                               0D     48
     510      53       0       0       0       0       0       000010000D     49
     510       0    -197       1       1                               0D     50
     116      54       0       0       0       0       0       000010000D     51
     116       0       0       1       0                               0D     52
     123      55       0       0       0       0       0       000010200D     53
     123       0       0       1       0                               0D     54
     190      56       0       0       0       0       0       000010000D     55
     190       0       0       1       1                               0D     56
     123      57       0       0       0       0       0       000010200D     57
     123       0       0       1       0                               0D     58
     110      58       0       0       0       0       0       000010000D     59
     110       0       0       2       0                               0D     60
     110      60       0       0       0       0       0       000010000D     61
     110       0       0       3       0                               0D     62
     110      63       0       0       0       0       0       000010000D     63
     110       0       0       2       0                               0D     64
     508      65       0       0       0       0       0       000010000D     65
     508       0       0       1       1                               0D     66
     510      66       0       0       0       0       0       000010000D     67
     510       0    -197       1       1                               0D     68
     116      67       0       0       0       0       0       000010000D     69
     116       0       0       1       0                               0D     70
     123      68       0       0       0       0       0       000010200D     71
     123       0       0       1       0                               0D     72
     190      69       0       0       0       0       0       000010000D     73
     190       0       0       1       1                               0D     74
     123      70       0       0       0       0       0       000010200D     75
     123       0       0       1       0                               0D     76
     110      71       0       0       0       0       0       000010000D     77
     110       0       0       2       0                               0D     78
     110      73       0       0       0       0       0       000010000D     79
     110       0       0       2       0                               0D     80
     110      75       0       0       0       0       0       000010000D     81
     110       0       0       2       0                               0D     82
     508      77       0       0       0       0       0       000010000D     83
     508       0       0       1       1                               0D     84
     510      78       0       0       0       0       0       000010000D     85
     510       0    -197       1       1                               0D     86
     116      79       0       0       0       0       0       000010000D     87
     116       0       0       1       0                               0D     88
     123      80       0       0       0       0       0       000010200D     89
     123       0       0       1       0                               0D     90
     190      81       0       0       0       0       0       000010000D     91
     190       0       0       1       1                               0D     92
     123      82       0       0       0       0       0       000010200D     93
     123       0       0       1       0                               0D     94
     110      83       0       0       0       0       0       000010000D     95
     110       0       0       2       0                               0D     96
     110      85       0       0       0       0       0       000010000D     97
     110       0       0       3       0                               0D     98
     110      88       0       0       0       0       0       000010000D     99
     110       0       0       3       0                               0D    100
     508      91       0       0       0       0       0       000010000D    101
     508       0       0       1       1                               0D    102
     510      92       0       0       0       0       0       000010000D    103
     510       0    -197       1       1                               0D    104
     116      93       0       0       0       0       0       000010000D    105
     116       0       0       2       0                               0D    106
     123      95       0       0       0       0       0       000010200D    107
     123       0       0       1       0                               0D    108
     190      96       0       0       0       0       0       000010000D    109
     190       0       0       1       1                               0D    110
     123      97       0       0       0       0       0       000010200D    111
     123       0       0       1       0                               0D    112
     110      98       0       0       0       0       0       000010000D    113
     110       0       0       2       0                               0D    114
     110     100       0       0       0       0       0       000010000D    115
     110       0       0       2       0                               0D    116
     110     102       0       0       0       0       0       000010000D    117
     110       0       0       2       0                               0D    118
     508     104       0       0       0       0       0       000010000D    119
     508       0       0       1       1                               0D    120
     510     105       0       0       0       0       0       000010000D    121
     510       0    -197       1       1                               0D    122
     116     106       0       0       0       0       0       000010000D    123
     116       0       0       1       0                               0D    124
     123     107       0       0       0       0       0       000010200D    125
     123       0       0       1       0                               0D    126
     190     108       0       0       0       0       0       000010000D    127
     190       0       0       1       1                               0D    128
     123     109       0       0       0       0       0       000010200D    129
     123       0       0       1       0                               0D    130
     110     110       0       0       0       0       0       000010000D    131
     110       0       0       2       0                               0D    132
     110     112       0       0       0       0       0       000010000D    133
     110       0       0       2       0                               0D    134
     508     114       0       0       0       0       0       000010000D    135
     508       0       0       1       1                               0D    136
     510     115       0       0       0       0       0       000010000D    137
     510       0    -197       1       1                               0D    138
     116     116       0       0       0       0       0       000010000D    139
     116       0       0       1       0                               0D    140
     196     117       0       0       0       0       0       000010000D    141
     196       0       0       1       1                               0D    142
     123     118       0       0       0       0       0       000010200D    143
     123       0       0       1       0                               0D    144
     123     119       0       0       0       0       0       000010200D    145
     123       0       0       1       0                               0D    146
     100     120       0       0       0       0      25       000010000D    147
     100       0       0       2       0                               0D    148
     508     122       0       0       0       0       0       000010000D    149
     508       0       0       1       1                               0D    150
     510     123       0       0       0       0       0       000010000D    151
     510       0    -197       1       1                               0D    152
     116     124       0       0       0       0       0       000010000D    153
     116       0       0       1       0                               0D    154
     123     125       0       0       0       0       0       000010200D    155
     123       0       0       1       0                               0D    156
     194     126       0       0       0       0       0       000010000D    157
     194       0       0       1       1                               0D    158
     123     127       0       0       0       0       0       000010200D    159
     123       0       0       1       0                               0D    160
     100     128       0       0       0       0      19       000010000D    161
     100       0       0       2       0                               0D    162
     508     130       0       0       0       0       0       000010000D    163
     508       0       0       1       1                               0D    164
     510     131       0       0       0       0       0       000010000D    165
     510       0    -197       1       1                               0D    166
     116     132       0       0       0       0       0       000010000D    167
     116       0       0       1       0                               0D    168
     123     133       0       0       0       0       0       000010200D    169
     123       0       0       1       0                               0D    170
     190     134       0       0       0       0       0       000010000D    171
     190       0       0       1       1                               0D    172
     123     135       0       0       0       0       0       000010200D    173
     123       0       0       1       0                               0D    174
     508     136       0       0       0       0       0       000010000D    175
     508       0       0       2       1                               0D    176
     508     138       0       0       0       0       0       000010000D    177
     508       0       0       1       1                               0D    178
     510     139       0       0       0       0       0       000010000D    179
     510       0    -197       1       1                               0D    180
     116     140       0       0       0       0       0       000010000D    181
     116       0       0       1       0                               0D    182
     123     141       0       0       0       0       0       000010200D    183
     123       0       0       1       0                               0D    184
     190     142       0       0       0       0       0       000010000D    185
     190       0       0       1       1                               0D    186
     123     143       0       0       0       0       0       000010200D    187
     123       0       0       1       0                               0D    188
     508     144       0       0       0       0       0       000010000D    189
     508       0       0       2       1                               0D    190
     510     146       0       0       0       0       0       000010000D    191
     510       0    -197       1       1                               0D    192
     514     147       0       0       0       0       0       000010000D    193
     514       0       0       2       1                               0D    194
     186     149       0       0       1       0       0       000000000D    195
     186       0       0       1       0                  Solid1       0D    196
     314     150       0       0       0       0       0       000000000D    197
     314       0       8       1       0                               0D    198
406,2,0,6HSJxx53;                                                      1P      1
116,-3.2790202961887D-32,6.75705356699222D-2,0.0D0,0;                  3P      2
123,4.85273686774737D-31,-1.0D0,0.0D0;                                 5P      3
194,3,5,8.94342307501203D-2,56.9332731882715D0,9;                      7P      4
123,1.0D0,0.0D0,0.0D0;                                                 9P      5
504,24,15,13,1,13,2,17,13,3,13,1,21,13,3,13,4,23,13,4,13,2,39,        11P      6
13,5,13,6,41,13,7,13,6,43,13,7,13,8,45,13,8,13,5,59,13,9,13,5,        11P      7
61,13,8,13,10,63,13,10,13,9,77,13,6,13,11,79,13,12,13,11,81,13,       11P      8
12,13,7,95,13,11,13,13,97,13,14,13,13,99,13,14,13,12,113,13,13,       11P      9
13,15,115,13,16,13,15,117,13,16,13,14,131,13,15,13,9,133,13,10,       11P     10
13,16,147,13,2,13,4,161,13,1,13,3;                                    11P     11
502,16,.1625D0,.02D0,0.0D0,1.63684615002406D-2,                       13P     12
.115141071339844D0,0.0D0,-.1625D0,.02D0,-1.98998532496136D-17,        13P     13
-1.63684615002406D-2,.115141071339844D0,-2.00449219554916D-18,        13P     14
-1.31128703695885D-16,.02D0,.21650635094611D0,-.1875D0,.02D0,         13P     15
.108253175473055D0,-.1875D0,-1.36483224405395D-31,                    13P     16
.108253175473055D0,-1.31128703695885D-16,-4.54944081351317D-32,       13P     17
.21650635094611D0,.1875D0,.02D0,.108253175473055D0,.1875D0,           13P     18
4.54944081351316D-32,.108253175473055D0,-.1875D0,.02D0,               13P     19
-.108253175473055D0,-.1875D0,-1.36483224405395D-31,                   13P     20
-.108253175473055D0,1.12688729738651D-16,.02D0,                       13P     21
-.21650635094611D0,1.12688729738651D-16,-4.54944081351315D-32,        13P     22
-.21650635094611D0,.1875D0,.02D0,-.108253175473055D0,.1875D0,         13P     23
4.54944081351317D-32,-.108253175473055D0;                             13P     24
110,.1625D0,.02D0,0.0D0,1.63684615002406D-2,.115141071339844D0,       15P     25
0.0D0;                                                                15P     26
100,0.0D0,0.0D0,0.0D0,-.1625D0,1.99005104861445D-17,.1625D0,          17P     27
-3.9801020972289D-17;                                                 17P     28
124,1.0D0,0.0D0,0.0D0,-9.70547373549474D-33,0.0D0,0.0D0,-1.0D0,       19P     29
.02D0,0.0D0,1.0D0,0.0D0,0.0D0;                                        19P     30
110,-.1625D0,.02D0,-1.98998532496136D-17,-1.63684615002406D-2,        21P     31
.115141071339844D0,-2.00449219554916D-18;                             21P     32
100,0.0D0,0.0D0,0.0D0,-1.63684615002406D-2,2.00455839832363D-18,      23P     33
1.63684615002406D-2,-4.00911679664727D-18;                            23P     34
124,1.0D0,0.0D0,0.0D0,-5.58749321882792D-32,0.0D0,0.0D0,-1.0D0,       25P     35
.115141071339844D0,0.0D0,1.0D0,0.0D0,0.0D0;                           25P     36
508,4,0,11,1,0,0,0,11,2,0,0,0,11,3,1,0,0,11,4,1,0;                    27P     37
510,7,1,1,27;                                                         29P     38
116,-1.31128703695885D-16,-4.54944081351317D-32,                      31P     39
.21650635094611D0,0;                                                  31P     40
123,-.5D0,0.0D0,.866025403784439D0;                                   33P     41
190,31,33,37;                                                         35P     42
123,.866025403784439D0,0.0D0,.5D0;                                    37P     43
110,-1.38777878078145D-16,.02D0,.21650635094611D0,-.1875D0,           39P     44
.02D0,.108253175473055D0;                                             39P     45
110,-.1875D0,-1.36483224405395D-31,.108253175473055D0,-.1875D0,       41P     46
.02D0,.108253175473055D0;                                             41P     47
110,-.1875D0,-1.36483224405395D-31,.108253175473055D0,                43P     48
-1.38777878078145D-16,-4.54944081351316D-32,.21650635094611D0;        43P     49
110,-1.31128703695885D-16,-4.54944081351317D-32,                      45P     50
.21650635094611D0,-1.31128703695885D-16,.02D0,.21650635094611D0;      45P     51
508,4,0,11,5,1,0,0,11,6,0,0,0,11,7,1,0,0,11,8,1,0;                    47P     52
510,35,1,1,47;                                                        49P     53
116,.1875D0,4.54944081351316D-32,.108253175473055D0,0;                51P     54
123,.5D0,0.0D0,.866025403784439D0;                                    53P     55
190,51,53,57;                                                         55P     56
123,.866025403784439D0,0.0D0,-.5D0;                                   57P     57
110,.1875D0,.02D0,.108253175473055D0,-1.31128703695885D-16,           59P     58
.02D0,.21650635094611D0;                                              59P     59
110,-1.31128703695885D-16,-4.54944081351317D-32,                      61P     60
.21650635094611D0,.1875D0,4.54944081351316D-32,                       61P     61
.108253175473055D0;                                                   61P     62
110,.1875D0,4.54944081351316D-32,.108253175473055D0,.1875D0,          63P     63
.02D0,.108253175473055D0;                                             63P     64
508,4,0,11,9,1,0,0,11,8,0,0,0,11,10,1,0,0,11,11,1,0;                  65P     65
510,55,1,1,65;                                                        67P     66
116,-.1875D0,-1.36483224405395D-31,.108253175473055D0,0;              69P     67
123,-1.0D0,0.0D0,0.0D0;                                               71P     68
190,69,71,75;                                                         73P     69
123,0.0D0,0.0D0,1.0D0;                                                75P     70
110,-.1875D0,.02D0,.108253175473055D0,-.1875D0,.02D0,                 77P     71
-.108253175473055D0;                                                  77P     72
110,-.1875D0,-1.36483224405395D-31,-.108253175473055D0,-.1875D0,      79P     73
.02D0,-.108253175473055D0;                                            79P     74
110,-.1875D0,-1.36483224405395D-31,-.108253175473055D0,-.1875D0,      81P     75
-1.36483224405395D-31,.108253175473055D0;                             81P     76
508,4,0,11,12,1,0,0,11,13,0,0,0,11,14,1,0,0,11,6,1,0;                 83P     77
510,73,1,1,83;                                                        85P     78
116,-.1875D0,-1.36483224405395D-31,-.108253175473055D0,0;             87P     79
123,-.5D0,0.0D0,-.866025403784439D0;                                  89P     80
190,87,89,93;                                                         91P     81
123,-.866025403784439D0,0.0D0,.5D0;                                   93P     82
110,-.1875D0,.02D0,-.108253175473055D0,1.12688729738651D-16,          95P     83
.02D0,-.21650635094611D0;                                             95P     84
110,1.12688729738651D-16,-4.54944081351315D-32,                       97P     85
-.21650635094611D0,1.12688729738651D-16,.02D0,                        97P     86
-.21650635094611D0;                                                   97P     87
110,1.12688729738651D-16,-4.54944081351315D-32,                       99P     88
-.21650635094611D0,-.1875D0,-1.36483224405395D-31,                    99P     89
-.108253175473055D0;                                                  99P     90
508,4,0,11,15,1,0,0,11,16,0,0,0,11,17,1,0,0,11,13,1,0;               101P     91
510,91,1,1,101;                                                      103P     92
116,1.12688729738651D-16,-4.54944081351315D-32,                      105P     93
-.21650635094611D0,0;                                                105P     94
123,.500000000000001D0,0.0D0,-.866025403784438D0;                    107P     95
190,105,107,111;                                                     109P     96
123,-.866025403784438D0,0.0D0,-.500000000000001D0;                   111P     97
110,1.11022302462516D-16,.02D0,-.21650635094611D0,.1875D0,.02D0,     113P     98
-.108253175473055D0;                                                 113P     99
110,.1875D0,4.54944081351317D-32,-.108253175473055D0,.1875D0,        115P    100
.02D0,-.108253175473055D0;                                           115P    101
110,.1875D0,4.54944081351317D-32,-.108253175473055D0,                117P    102
1.11022302462516D-16,-4.54944081351315D-32,-.21650635094611D0;       117P    103
508,4,0,11,18,1,0,0,11,19,0,0,0,11,20,1,0,0,11,16,1,0;               119P    104
510,109,1,1,119;                                                     121P    105
116,.1875D0,4.54944081351317D-32,-.108253175473055D0,0;              123P    106
123,1.0D0,0.0D0,0.0D0;                                               125P    107
190,123,125,129;                                                     127P    108
123,0.0D0,0.0D0,-1.0D0;                                              129P    109
110,.1875D0,.02D0,-.108253175473055D0,.1875D0,.02D0,                 131P    110
.108253175473055D0;                                                  131P    111
110,.1875D0,4.54944081351316D-32,.108253175473055D0,.1875D0,         133P    112
4.54944081351317D-32,-.108253175473055D0;                            133P    113
508,4,0,11,21,1,0,0,11,11,0,0,0,11,22,1,0,0,11,19,1,0;               135P    114
510,127,1,1,135;                                                     137P    115
116,-2.92626011698513D-17,.09D0,0.0D0,0;                             139P    116
196,139,.03D0,143,145;                                               141P    117
123,0.0D0,0.0D0,1.0D0;                                               143P    118
123,1.0D0,0.0D0,0.0D0;                                               145P    119
100,0.0D0,0.0D0,0.0D0,1.63684615002406D-2,0.0D0,                     147P    120
-1.63684615002406D-2,2.00455839832363D-18;                           147P    121
508,2,0,11,23,0,0,0,11,4,0,0;                                        149P    122
510,141,1,1,149;                                                     151P    123
116,-3.2790202961887D-32,6.75705356699222D-2,0.0D0,0;                153P    124
123,4.85273686774737D-31,-1.0D0,0.0D0;                               155P    125
194,153,155,8.94342307501203D-2,56.9332731882715D0,159;              157P    126
123,1.0D0,0.0D0,0.0D0;                                               159P    127
100,0.0D0,0.0D0,0.0D0,.1625D0,0.0D0,-.1625D0,                        161P    128
1.99005104861445D-17;                                                161P    129
508,4,0,11,1,1,0,0,11,23,1,0,0,11,3,0,0,0,11,24,0,0;                 163P    130
510,157,1,1,163;                                                     165P    131
116,.175D0,.02D0,0.0D0,0;                                            167P    132
123,0.0D0,1.0D0,0.0D0;                                               169P    133
190,167,169,173;                                                     171P    134
123,0.0D0,0.0D0,1.0D0;                                               173P    135
508,6,0,11,21,0,0,0,11,18,0,0,0,11,15,0,0,0,11,12,0,0,0,11,5,0,      175P    136
0,0,11,9,0,0;                                                        175P    137
508,2,0,11,24,1,0,0,11,2,1,0;                                        177P    138
510,171,2,1,175,177;                                                 179P    139
116,.09375D0,0.0D0,0.0D0,0;                                          181P    140
123,0.0D0,-1.0D0,0.0D0;                                              183P    141
190,181,183,187;                                                     185P    142
123,0.0D0,0.0D0,-1.0D0;                                              187P    143
508,6,0,11,14,0,0,0,11,17,0,0,0,11,20,0,0,0,11,22,0,0,0,11,10,0,     189P    144
0,0,11,7,0,0;                                                        189P    145
510,185,1,1,189;                                                     191P    146
514,11,29,1,49,1,67,1,85,1,103,1,121,1,137,1,151,1,165,1,179,1,      193P    147
191,1;                                                               193P    148
186,193,1,0;                                                         195P    149
314,75.2941012382507D0,75.2941012382507D0,75.2941012382507D0,;       197P    150
S      1G      4D    198P    150                                        T      1
