                                                                        S      1
,,10HSJxx82.ipt,27HNo Iges File Name specified,22HAutodesk Inventor 2011G      1
,37HAutoDesk Inventor Iges Exporter R2011,32,38,6,99,15,10HSJxx82.ipt,  G      2
1.0D0,1,2HIN,1,.08D0,15H20101112.132847,3.93700787401575D-4,10000.0D0,  G      3
13HAdministrator,,11,0,,;                                               G      4
     406       1       0       0       1       0       0       000000000D      1
     406       0       0       1       3                               0D      2
     116       2       0       0       0       0       0       000010000D      3
     116       0       0       1       0                               0D      4
     123       3       0       0       0       0       0       000010200D      5
     123       0       0       1       0                               0D      6
     192       4       0       0       0       0       0       000010000D      7
     192       0       0       1       1                               0D      8
     123       5       0       0       0       0       0       000010200D      9
     123       0       0       1       0                               0D     10
     504       6       0       0       0       0       0       000010001D     11
     504       0       0       3       1                               0D     12
     502       9       0       0       0       0       0       000010000D     13
     502       0       0       6       1                               0D     14
     110      15       0       0       0       0       0       000010000D     15
     110       0       0       1       0                               0D     16
     100      16       0       0       0       0      19       000010000D     17
     100       0       0       2       0                               0D     18
     124      18       0       0       0       0       0       000000000D     19
     124       0       0       2       0                               0D     20
     110      20       0       0       0       0       0       000010000D     21
     110       0       0       2       0                               0D     22
     100      22       0       0       0       0      25       000010000D     23
     100       0       0       2       0                               0D     24
     124      24       0       0       0       0       0       000000000D     25
     124       0       0       2       0                               0D     26
     100      26       0       0       0       0      25       000010000D     27
     100       0       0       2       0                               0D     28
     508      28       0       0       0       0       0       000010000D     29
     508       0       0       1       1                               0D     30
     510      29       0       0       0       0       0       000010000D     31
     510       0    -107       1       1                               0D     32
     128      30       0       0       0       0       0       000010000D     33
     128       0       0      53       0                               0D     34
     100      83       0       0       0       0      37       000010000D     35
     100       0       0       2       0                               0D     36
     124      85       0       0       0       0       0       000000000D     37
     124       0       0       2       0                               0D     38
     100      87       0       0       0       0      41       000010000D     39
     100       0       0       2       0                               0D     40
     124      89       0       0       0       0       0       000000000D     41
     124       0       0       2       0                               0D     42
     100      91       0       0       0       0      41       000010000D     43
     100       0       0       2       0                               0D     44
     100      93       0       0       0       0      47       000010000D     45
     100       0       0       2       0                               0D     46
     124      95       0       0       0       0       0       000000000D     47
     124       0       0       2       0                               0D     48
     100      97       0       0       0       0      25       000010000D     49
     100       0       0       1       0                               0D     50
     508      98       0       0       0       0       0       000010000D     51
     508       0       0       2       1                               0D     52
     510     100       0       0       0       0       0       000010000D     53
     510       0    -107       1       1                               0D     54
     116     101       0       0       0       0       0       000010000D     55
     116       0       0       1       0                               0D     56
     196     102       0       0       0       0       0       000010000D     57
     196       0       0       1       1                               0D     58
     123     103       0       0       0       0       0       000010200D     59
     123       0       0       1       0                               0D     60
     123     104       0       0       0       0       0       000010200D     61
     123       0       0       1       0                               0D     62
     100     105       0       0       0       0      41       000010000D     63
     100       0       0       2       0                               0D     64
     508     107       0       0       0       0       0       000010000D     65
     508       0       0       1       1                               0D     66
     510     108       0       0       0       0       0       000010000D     67
     510       0    -107       1       1                               0D     68
     128     109       0       0       0       0       0       000010000D     69
     128       0       0      53       0                               0D     70
     100     162       0       0       0       0      25       000010000D     71
     100       0       0       2       0                               0D     72
     508     164       0       0       0       0       0       000010000D     73
     508       0       0       1       1                               0D     74
     510     165       0       0       0       0       0       000010000D     75
     510       0    -107       1       1                               0D     76
     116     166       0       0       0       0       0       000010000D     77
     116       0       0       1       0                               0D     78
     123     167       0       0       0       0       0       000010200D     79
     123       0       0       1       0                               0D     80
     192     168       0       0       0       0       0       000010000D     81
     192       0       0       1       1                               0D     82
     123     169       0       0       0       0       0       000010200D     83
     123       0       0       1       0                               0D     84
     100     170       0       0       0       0      19       000010000D     85
     100       0       0       1       0                               0D     86
     508     171       0       0       0       0       0       000010000D     87
     508       0       0       1       1                               0D     88
     510     172       0       0       0       0       0       000010000D     89
     510       0    -107       1       1                               0D     90
     116     173       0       0       0       0       0       000010000D     91
     116       0       0       1       0                               0D     92
     123     174       0       0       0       0       0       000010200D     93
     123       0       0       1       0                               0D     94
     190     175       0       0       0       0       0       000010000D     95
     190       0       0       1       1                               0D     96
     123     176       0       0       0       0       0       000010200D     97
     123       0       0       1       0                               0D     98
     508     177       0       0       0       0       0       000010000D     99
     508       0       0       1       1                               0D    100
     510     178       0       0       0       0       0       000010000D    101
     510       0    -107       1       1                               0D    102
     514     179       0       0       0       0       0       000010000D    103
     514       0       0       1       1                               0D    104
     186     180       0       0       1       0       0       000000000D    105
     186       0       0       1       0                  Solid1       0D    106
     314     181       0       0       0       0       0       000000000D    107
     314       0       8       1       0                               0D    108
406,2,0,6HSJxx82;                                                      1P      1
116,0.0D0,.01D0,0.0D0,0;                                               3P      2
123,0.0D0,-1.0D0,0.0D0;                                                5P      3
192,3,5,.125D0,9;                                                      7P      4
123,1.0D0,0.0D0,0.0D0;                                                 9P      5
504,13,15,13,1,13,2,17,13,3,13,1,21,13,3,13,4,23,13,4,13,5,27,        11P      6
13,5,13,2,35,13,6,13,5,39,13,6,13,7,43,13,7,13,8,45,13,8,13,9,        11P      7
49,13,2,13,9,63,13,8,13,6,71,13,9,13,4,85,13,1,13,3;                  11P      8
502,9,.125D0,0.0D0,0.0D0,.125D0,.02D0,0.0D0,-.125D0,0.0D0,            13P      9
-1.53075794227797D-17,-.125D0,.02D0,-1.53075794227797D-17,0.0D0,      13P     10
.02D0,-.125D0,0.0D0,2.43941018766756D-2,-.115013404825737D0,          13P     11
.115013404825737D0,2.43941018766756D-2,0.0D0,                         13P     12
-1.40846146324343D-17,2.43941018766756D-2,.115013404825737D0,         13P     13
-1.53075794227797D-17,.02D0,.125D0;                                   13P     14
110,.125D0,1.73472347597681D-18,0.0D0,.125D0,.02D0,0.0D0;             15P     15
100,0.0D0,0.0D0,0.0D0,-.125D0,1.53080849893419D-17,.125D0,            17P     16
-3.06161699786838D-17;                                                17P     17
124,1.0D0,0.0D0,0.0D0,0.0D0,0.0D0,0.0D0,-1.0D0,0.0D0,0.0D0,           19P     18
1.0D0,0.0D0,0.0D0;                                                    19P     19
110,-.125D0,1.73472347597681D-18,-1.53075794227797D-17,-.125D0,       21P     20
.02D0,-1.53075794227797D-17;                                          21P     21
100,0.0D0,0.0D0,0.0D0,-.125D0,1.53080849893419D-17,                   23P     22
-2.29621274840129D-17,-.125D0;                                        23P     23
124,1.0D0,0.0D0,0.0D0,0.0D0,0.0D0,0.0D0,-1.0D0,.02D0,0.0D0,           25P     24
1.0D0,0.0D0,0.0D0;                                                    25P     25
100,0.0D0,0.0D0,0.0D0,-2.29621274840129D-17,-.125D0,.125D0,           27P     26
-3.06161699786838D-17;                                                27P     27
508,5,0,11,1,0,0,0,11,2,0,0,0,11,3,1,0,0,11,4,1,0,0,11,5,1,0;         29P     28
510,7,1,1,29;                                                         31P     29
128,4,8,2,2,0,1,0,0,0,.741782577625324D0,.741782577625324D0,          33P     30
.741782577625324D0,1.5707963267949D0,1.5707963267949D0,               33P     31
2.39981007596447D0,2.39981007596447D0,2.39981007596447D0,0.0D0,       33P     32
0.0D0,0.0D0,1.5707963267949D0,1.5707963267949D0,                      33P     33
3.14159265358979D0,3.14159265358979D0,4.71238898038469D0,             33P     34
4.71238898038469D0,6.28318530717959D0,6.28318530717959D0,             33P     35
6.28318530717959D0,1.0D0,.915315032422772D0,1.0D0,                    33P     36
.915315032422763D0,1.0D0,.707106781186548D0,.647225466348127D0,       33P     37
.707106781186548D0,.64722546634812D0,.707106781186548D0,1.0D0,        33P     38
.915315032422772D0,1.0D0,.915315032422763D0,1.0D0,                    33P     39
.707106781186548D0,.647225466348127D0,.707106781186548D0,             33P     40
.64722546634812D0,.707106781186548D0,1.0D0,.915315032422772D0,        33P     41
1.0D0,.915315032422763D0,1.0D0,.707106781186548D0,                    33P     42
.647225466348127D0,.707106781186548D0,.64722546634812D0,              33P     43
.707106781186548D0,1.0D0,.915315032422772D0,1.0D0,                    33P     44
.915315032422763D0,1.0D0,.707106781186548D0,.647225466348127D0,       33P     45
.707106781186548D0,.64722546634812D0,.707106781186548D0,1.0D0,        33P     46
.915315032422772D0,1.0D0,.915315032422763D0,1.0D0,                    33P     47
-1.65305442131251D-17,2.43941018766756D-2,.134986595174263D0,         33P     48
-1.60374448096579D-17,.02D0,.13096D0,-1.53075794227797D-17,           33P     49
.02D0,.125D0,-1.45777140359016D-17,.02D0,.11904D0,                    33P     50
-1.40846146324343D-17,2.43941018766756D-2,.115013404825737D0,         33P     51
-.134986595174263D0,2.43941018766756D-2,.134986595174263D0,           33P     52
-.13096D0,.02D0,.13096D0,-.125D0,.02D0,.125D0,-.11904D0,.02D0,        33P     53
.11904D0,-.115013404825737D0,2.43941018766756D-2,                     33P     54
.115013404825737D0,-.134986595174263D0,2.43941018766756D-2,           33P     55
-1.65305442131251D-17,-.13096D0,.02D0,-1.60374448096579D-17,          33P     56
-.125D0,.02D0,-1.53075794227797D-17,-.11904D0,.02D0,                  33P     57
-1.45777140359016D-17,-.115013404825737D0,2.43941018766756D-2,        33P     58
-1.40846146324343D-17,-.134986595174263D0,2.43941018766756D-2,        33P     59
-.134986595174263D0,-.13096D0,.02D0,-.13096D0,-.125D0,.02D0,          33P     60
-.125D0,-.11904D0,.02D0,-.11904D0,-.115013404825737D0,                33P     61
2.43941018766756D-2,-.115013404825737D0,1.65305442131251D-17,         33P     62
2.43941018766756D-2,-.134986595174263D0,1.60374448096579D-17,         33P     63
.02D0,-.13096D0,1.53075794227797D-17,.02D0,-.125D0,                   33P     64
1.45777140359016D-17,.02D0,-.11904D0,1.40846146324343D-17,            33P     65
2.43941018766756D-2,-.115013404825737D0,.134986595174263D0,           33P     66
2.43941018766756D-2,-.134986595174263D0,.13096D0,.02D0,               33P     67
-.13096D0,.125D0,.02D0,-.125D0,.11904D0,.02D0,-.11904D0,              33P     68
.115013404825737D0,2.43941018766756D-2,-.115013404825737D0,           33P     69
.134986595174263D0,2.43941018766756D-2,1.65305442131251D-17,          33P     70
.13096D0,.02D0,1.60374448096579D-17,.125D0,.02D0,                     33P     71
1.53075794227797D-17,.11904D0,.02D0,1.45777140359016D-17,             33P     72
.115013404825737D0,2.43941018766756D-2,1.40846146324343D-17,          33P     73
.134986595174263D0,2.43941018766756D-2,.134986595174263D0,            33P     74
.13096D0,.02D0,.13096D0,.125D0,.02D0,.125D0,.11904D0,.02D0,           33P     75
.11904D0,.115013404825737D0,2.43941018766756D-2,                      33P     76
.115013404825737D0,-1.65305442131251D-17,2.43941018766756D-2,         33P     77
.134986595174263D0,-1.60374448096579D-17,.02D0,.13096D0,              33P     78
-1.53075794227797D-17,.02D0,.125D0,-1.45777140359016D-17,.02D0,       33P     79
.11904D0,-1.40846146324343D-17,2.43941018766756D-2,                   33P     80
.115013404825737D0,.741782577625324D0,2.39981007596447D0,0.0D0,       33P     81
6.28318530717959D0;                                                   33P     82
100,0.0D0,0.0D0,0.0D0,-9.98659517426274D-3,-9.15135266877892D-3,      35P     83
-7.46729421066231D-17,-1.35454545454545D-2;                           35P     84
124,0.0D0,0.0D0,1.0D0,0.0D0,0.0D0,1.0D0,0.0D0,                        37P     85
3.35454545454545D-2,-1.0D0,0.0D0,0.0D0,-.125D0;                       37P     86
100,0.0D0,0.0D0,0.0D0,-2.11276197118317D-17,-.115013404825737D0,      39P     87
.115013404825737D0,-2.81701596157756D-17;                             39P     88
124,1.0D0,0.0D0,0.0D0,0.0D0,0.0D0,0.0D0,-1.0D0,                       41P     89
2.43941018766756D-2,0.0D0,1.0D0,0.0D0,0.0D0;                          41P     90
100,0.0D0,0.0D0,0.0D0,.115013404825737D0,0.0D0,                       43P     91
7.04253990394389D-18,.115013404825737D0;                              43P     92
100,0.0D0,0.0D0,0.0D0,-9.98659517426274D-3,-9.15135266877892D-3,      45P     93
-7.46729421066231D-17,-1.35454545454545D-2;                           45P     94
124,0.0D0,0.0D0,-1.0D0,-1.53075794227797D-17,0.0D0,1.0D0,0.0D0,       47P     95
3.35454545454545D-2,1.0D0,0.0D0,0.0D0,.125D0;                         47P     96
100,0.0D0,0.0D0,0.0D0,.125D0,0.0D0,7.65404249467096D-18,.125D0;       49P     97
508,6,0,11,6,0,0,0,11,7,1,0,0,11,8,1,0,0,11,9,1,0,0,11,10,0,0,0,      51P     98
11,5,0,0;                                                             51P     99
510,33,1,1,51;                                                        53P    100
116,4.13041529653483D-17,-.081D0,0.0D0,0;                             55P    101
196,55,.156D0,59,61;                                                  57P    102
123,0.0D0,0.0D0,1.0D0;                                                59P    103
123,1.0D0,0.0D0,0.0D0;                                                61P    104
100,0.0D0,0.0D0,0.0D0,7.04253990394389D-18,.115013404825737D0,        63P    105
-2.11276197118317D-17,-.115013404825737D0;                            63P    106
508,3,0,11,8,0,0,0,11,7,0,0,0,11,11,0,0;                              65P    107
510,57,1,1,65;                                                        67P    108
128,4,8,2,2,0,1,0,0,0,.741782577625324D0,.741782577625324D0,          69P    109
.741782577625324D0,1.5707963267949D0,1.5707963267949D0,               69P    110
2.39981007596447D0,2.39981007596447D0,2.39981007596447D0,0.0D0,       69P    111
0.0D0,0.0D0,1.5707963267949D0,1.5707963267949D0,                      69P    112
3.14159265358979D0,3.14159265358979D0,4.71238898038469D0,             69P    113
4.71238898038469D0,6.28318530717959D0,6.28318530717959D0,             69P    114
6.28318530717959D0,1.0D0,.915315032422772D0,1.0D0,                    69P    115
.915315032422763D0,1.0D0,.707106781186548D0,.647225466348127D0,       69P    116
.707106781186548D0,.64722546634812D0,.707106781186548D0,1.0D0,        69P    117
.915315032422772D0,1.0D0,.915315032422763D0,1.0D0,                    69P    118
.707106781186548D0,.647225466348127D0,.707106781186548D0,             69P    119
.64722546634812D0,.707106781186548D0,1.0D0,.915315032422772D0,        69P    120
1.0D0,.915315032422763D0,1.0D0,.707106781186548D0,                    69P    121
.647225466348127D0,.707106781186548D0,.64722546634812D0,              69P    122
.707106781186548D0,1.0D0,.915315032422772D0,1.0D0,                    69P    123
.915315032422763D0,1.0D0,.707106781186548D0,.647225466348127D0,       69P    124
.707106781186548D0,.64722546634812D0,.707106781186548D0,1.0D0,        69P    125
.915315032422772D0,1.0D0,.915315032422763D0,1.0D0,                    69P    126
-1.65305442131251D-17,2.43941018766756D-2,.134986595174263D0,         69P    127
-1.60374448096579D-17,.02D0,.13096D0,-1.53075794227797D-17,           69P    128
.02D0,.125D0,-1.45777140359016D-17,.02D0,.11904D0,                    69P    129
-1.40846146324343D-17,2.43941018766756D-2,.115013404825737D0,         69P    130
-.134986595174263D0,2.43941018766756D-2,.134986595174263D0,           69P    131
-.13096D0,.02D0,.13096D0,-.125D0,.02D0,.125D0,-.11904D0,.02D0,        69P    132
.11904D0,-.115013404825737D0,2.43941018766756D-2,                     69P    133
.115013404825737D0,-.134986595174263D0,2.43941018766756D-2,           69P    134
-1.65305442131251D-17,-.13096D0,.02D0,-1.60374448096579D-17,          69P    135
-.125D0,.02D0,-1.53075794227797D-17,-.11904D0,.02D0,                  69P    136
-1.45777140359016D-17,-.115013404825737D0,2.43941018766756D-2,        69P    137
-1.40846146324343D-17,-.134986595174263D0,2.43941018766756D-2,        69P    138
-.134986595174263D0,-.13096D0,.02D0,-.13096D0,-.125D0,.02D0,          69P    139
-.125D0,-.11904D0,.02D0,-.11904D0,-.115013404825737D0,                69P    140
2.43941018766756D-2,-.115013404825737D0,1.65305442131251D-17,         69P    141
2.43941018766756D-2,-.134986595174263D0,1.60374448096579D-17,         69P    142
.02D0,-.13096D0,1.53075794227797D-17,.02D0,-.125D0,                   69P    143
1.45777140359016D-17,.02D0,-.11904D0,1.40846146324343D-17,            69P    144
2.43941018766756D-2,-.115013404825737D0,.134986595174263D0,           69P    145
2.43941018766756D-2,-.134986595174263D0,.13096D0,.02D0,               69P    146
-.13096D0,.125D0,.02D0,-.125D0,.11904D0,.02D0,-.11904D0,              69P    147
.115013404825737D0,2.43941018766756D-2,-.115013404825737D0,           69P    148
.134986595174263D0,2.43941018766756D-2,1.65305442131251D-17,          69P    149
.13096D0,.02D0,1.60374448096579D-17,.125D0,.02D0,                     69P    150
1.53075794227797D-17,.11904D0,.02D0,1.45777140359016D-17,             69P    151
.115013404825737D0,2.43941018766756D-2,1.40846146324343D-17,          69P    152
.134986595174263D0,2.43941018766756D-2,.134986595174263D0,            69P    153
.13096D0,.02D0,.13096D0,.125D0,.02D0,.125D0,.11904D0,.02D0,           69P    154
.11904D0,.115013404825737D0,2.43941018766756D-2,                      69P    155
.115013404825737D0,-1.65305442131251D-17,2.43941018766756D-2,         69P    156
.134986595174263D0,-1.60374448096579D-17,.02D0,.13096D0,              69P    157
-1.53075794227797D-17,.02D0,.125D0,-1.45777140359016D-17,.02D0,       69P    158
.11904D0,-1.40846146324343D-17,2.43941018766756D-2,                   69P    159
.115013404825737D0,.741782577625324D0,2.39981007596447D0,0.0D0,       69P    160
6.28318530717959D0;                                                   69P    161
100,0.0D0,0.0D0,0.0D0,7.65404249467096D-18,.125D0,-.125D0,            71P    162
1.53080849893419D-17;                                                 71P    163
508,5,0,11,6,1,0,0,11,4,0,0,0,11,12,0,0,0,11,9,0,0,0,11,11,1,0;       73P    164
510,69,1,1,73;                                                        75P    165
116,0.0D0,.01D0,0.0D0,0;                                              77P    166
123,0.0D0,-1.0D0,0.0D0;                                               79P    167
192,77,79,.125D0,83;                                                  81P    168
123,1.0D0,0.0D0,0.0D0;                                                83P    169
100,0.0D0,0.0D0,0.0D0,.125D0,0.0D0,-.125D0,1.53080849893419D-17;      85P    170
508,5,0,11,1,1,0,0,11,10,1,0,0,11,12,1,0,0,11,3,0,0,0,11,13,0,0;      87P    171
510,81,1,1,87;                                                        89P    172
116,.0625D0,0.0D0,0.0D0,0;                                            91P    173
123,0.0D0,-1.0D0,0.0D0;                                               93P    174
190,91,93,97;                                                         95P    175
123,0.0D0,0.0D0,-1.0D0;                                               97P    176
508,2,0,11,13,1,0,0,11,2,1,0;                                         99P    177
510,95,1,1,99;                                                       101P    178
514,6,31,1,53,1,67,1,75,1,89,1,101,1;                                103P    179
186,103,1,0;                                                         105P    180
314,75.2941012382507D0,75.2941012382507D0,75.2941012382507D0,;       107P    181
S      1G      4D    108P    181                                        T      1
