                                                                        S      1
,,10HSJxx70.ipt,27HNo Iges File Name specified,22HAutodesk Inventor 2011G      1
,37HAutoDesk Inventor Iges Exporter R2011,32,38,6,99,15,10HSJxx70.ipt,  G      2
1.0D0,1,2HIN,1,.08D0,15H20101112.132357,3.93700787401575D-4,10000.0D0,  G      3
13HAdministrator,,11,0,,;                                               G      4
     406       1       0       0       1       0       0       000000000D      1
     406       0       0       1       3                               0D      2
     128       2       0       0       0       0       0       000010000D      3
     128       0       0      41       0                               0D      4
     504      43       0       0       0       0       0       000010001D      5
     504       0       0       3       1                               0D      6
     502      46       0       0       0       0       0       000010000D      7
     502       0       0      10       1                               0D      8
     100      56       0       0       0       0      11       000010000D      9
     100       0       0       2       0                               0D     10
     124      58       0       0       0       0       0       000000000D     11
     124       0       0       2       0                               0D     12
     100      60       0       0       0       0      15       000010000D     13
     100       0       0       2       0                               0D     14
     124      62       0       0       0       0       0       000000000D     15
     124       0       0       2       0                               0D     16
     100      64       0       0       0       0      15       000010000D     17
     100       0       0       2       0                               0D     18
     100      66       0       0       0       0      21       000010000D     19
     100       0       0       2       0                               0D     20
     124      68       0       0       0       0       0       000000000D     21
     124       0       0       2       0                               0D     22
     100      70       0       0       0       0      25       000010000D     23
     100       0       0       2       0                               0D     24
     124      72       0       0       0       0       0       000000000D     25
     124       0       0       2       0                               0D     26
     100      74       0       0       0       0      25       000010000D     27
     100       0       0       2       0                               0D     28
     508      76       0       0       0       0       0       000010000D     29
     508       0       0       2       1                               0D     30
     510      78       0       0       0       0       0       000010000D     31
     510       0    -123       1       1                               0D     32
     116      79       0       0       0       0       0       000010000D     33
     116       0       0       1       0                               0D     34
     123      80       0       0       0       0       0       000010200D     35
     123       0       0       1       0                               0D     36
     192      81       0       0       0       0       0       000010000D     37
     192       0       0       1       1                               0D     38
     123      82       0       0       0       0       0       000010200D     39
     123       0       0       1       0                               0D     40
     110      83       0       0       0       0       0       000010000D     41
     110       0       0       2       0                               0D     42
     100      85       0       0       0       0      45       000010000D     43
     100       0       0       2       0                               0D     44
     124      87       0       0       0       0       0       000000000D     45
     124       0       0       2       0                               0D     46
     110      89       0       0       0       0       0       000010000D     47
     110       0       0       3       0                               0D     48
     100      92       0       0       0       0      25       000010000D     49
     100       0       0       2       0                               0D     50
     508      94       0       0       0       0       0       000010000D     51
     508       0       0       1       1                               0D     52
     510      95       0       0       0       0       0       000010000D     53
     510       0    -123       1       1                               0D     54
     116      96       0       0       0       0       0       000010000D     55
     116       0       0       1       0                               0D     56
     123      97       0       0       0       0       0       000010200D     57
     123       0       0       1       0                               0D     58
     190      98       0       0       0       0       0       000010000D     59
     190       0       0       1       1                               0D     60
     123      99       0       0       0       0       0       000010200D     61
     123       0       0       1       0                               0D     62
     100     100       0       0       0       0      25       000010000D     63
     100       0       0       2       0                               0D     64
     508     102       0       0       0       0       0       000010000D     65
     508       0       0       1       1                               0D     66
     100     103       0       0       0       0      25       000010000D     67
     100       0       0       2       0                               0D     68
     508     105       0       0       0       0       0       000010000D     69
     508       0       0       1       1                               0D     70
     510     106       0       0       0       0       0       000010000D     71
     510       0    -123       1       1                               0D     72
     116     107       0       0       0       0       0       000010000D     73
     116       0       0       1       0                               0D     74
     123     108       0       0       0       0       0       000010200D     75
     123       0       0       1       0                               0D     76
     192     109       0       0       0       0       0       000010000D     77
     192       0       0       1       1                               0D     78
     123     110       0       0       0       0       0       000010200D     79
     123       0       0       1       0                               0D     80
     100     111       0       0       0       0      45       000010000D     81
     100       0       0       2       0                               0D     82
     508     113       0       0       0       0       0       000010000D     83
     508       0       0       1       1                               0D     84
     510     114       0       0       0       0       0       000010000D     85
     510       0    -123       1       1                               0D     86
     116     115       0       0       0       0       0       000010000D     87
     116       0       0       1       0                               0D     88
     123     116       0       0       0       0       0       000010200D     89
     123       0       0       1       0                               0D     90
     190     117       0       0       0       0       0       000010000D     91
     190       0       0       1       1                               0D     92
     123     118       0       0       0       0       0       000010200D     93
     123       0       0       1       0                               0D     94
     508     119       0       0       0       0       0       000010000D     95
     508       0       0       1       1                               0D     96
     510     120       0       0       0       0       0       000010000D     97
     510       0    -123       1       1                               0D     98
     116     121       0       0       0       0       0       000010000D     99
     116       0       0       1       0                               0D    100
     196     122       0       0       0       0       0       000010000D    101
     196       0       0       1       1                               0D    102
     123     123       0       0       0       0       0       000010200D    103
     123       0       0       1       0                               0D    104
     123     124       0       0       0       0       0       000010200D    105
     123       0       0       1       0                               0D    106
     100     125       0       0       0       0      15       000010000D    107
     100       0       0       2       0                               0D    108
     508     127       0       0       0       0       0       000010000D    109
     508       0       0       1       1                               0D    110
     510     128       0       0       0       0       0       000010000D    111
     510       0    -123       1       1                               0D    112
     128     129       0       0       0       0       0       000010000D    113
     128       0       0      41       0                               0D    114
     508     170       0       0       0       0       0       000010000D    115
     508       0       0       1       1                               0D    116
     510     171       0       0       0       0       0       000010000D    117
     510       0    -123       1       1                               0D    118
     514     172       0       0       0       0       0       000010000D    119
     514       0       0       1       1                               0D    120
     186     173       0       0       1       0       0       000000000D    121
     186       0       0       1       0                  Solid1       0D    122
     314     174       0       0       0       0       0       000000000D    123
     314       0       8       1       0                               0D    124
406,2,0,6HSJxx70;                                                      1P      1
128,2,8,2,2,0,1,0,0,0,1.14609620038851D0,1.14609620038851D0,           3P      2
1.14609620038851D0,1.99549645320128D0,1.99549645320128D0,              3P      3
1.99549645320128D0,0.0D0,0.0D0,0.0D0,1.5707963267949D0,                3P      4
1.5707963267949D0,3.14159265358979D0,3.14159265358979D0,               3P      5
4.71238898038469D0,4.71238898038469D0,6.28318530717959D0,              3P      6
6.28318530717959D0,6.28318530717959D0,1.0D0,.911162336104522D0,        3P      7
1.0D0,.707106781186548D0,.644289066621284D0,.707106781186548D0,        3P      8
1.0D0,.911162336104522D0,1.0D0,.707106781186548D0,                     3P      9
.644289066621284D0,.707106781186548D0,1.0D0,.911162336104522D0,        3P     10
1.0D0,.707106781186548D0,.644289066621284D0,.707106781186548D0,        3P     11
1.0D0,.911162336104522D0,1.0D0,.707106781186548D0,                     3P     12
.644289066621284D0,.707106781186548D0,1.0D0,.911162336104522D0,        3P     13
1.0D0,-.995522014377563D0,2.23992809901163D-2,                         3P     14
.194486451505969D0,-.995522014377563D0,4.11522625487489D-4,            3P     15
.145864838629475D0,-.995522014377563D0,2.23992809901163D-2,            3P     16
.097243225752982D0,-1.19000846588353D0,.022399280990118D0,             3P     17
.194486451505969D0,-1.14138685300704D0,4.11522625488764D-4,            3P     18
.145864838629475D0,-1.09276524013055D0,2.23992809901172D-2,            3P     19
9.72432257529819D-2,-1.19000846588353D0,.022399280990118D0,            3P     20
0.0D0,-1.14138685300704D0,4.11522625488768D-4,                         3P     21
3.03296054234211D-32,-1.09276524013055D0,2.23992809901172D-2,          3P     22
0.0D0,-1.19000846588353D0,.022399280990118D0,                          3P     23
-.194486451505969D0,-1.14138685300704D0,4.11522625488771D-4,           3P     24
-.145864838629475D0,-1.09276524013055D0,2.23992809901172D-2,           3P     25
-9.72432257529819D-2,-.995522014377563D0,2.23992809901163D-2,          3P     26
-.194486451505969D0,-.995522014377563D0,4.11522625487496D-4,           3P     27
-.145864838629475D0,-.995522014377563D0,2.23992809901163D-2,           3P     28
-.097243225752982D0,-.801035562871594D0,2.23992809901146D-2,           3P     29
-.194486451505969D0,-.849657175748088D0,4.11522625486221D-4,           3P     30
-.145864838629475D0,-.898278788624581D0,2.23992809901155D-2,           3P     31
-9.72432257529819D-2,-.801035562871594D0,2.23992809901146D-2,          3P     32
0.0D0,-.849657175748088D0,4.11522625486218D-4,                         3P     33
-3.03296054234211D-32,-.898278788624581D0,2.23992809901155D-2,         3P     34
0.0D0,-.801035562871594D0,2.23992809901146D-2,                         3P     35
.194486451505969D0,-.849657175748088D0,4.11522625486214D-4,            3P     36
.145864838629475D0,-.898278788624581D0,2.23992809901155D-2,            3P     37
9.72432257529819D-2,-.995522014377563D0,2.23992809901163D-2,           3P     38
.194486451505969D0,-.995522014377563D0,4.11522625487489D-4,            3P     39
.145864838629475D0,-.995522014377563D0,2.23992809901163D-2,            3P     40
.097243225752982D0,1.14609620038851D0,1.99549645320128D0,0.0D0,        3P     41
6.28318530717959D0;                                                    3P     42
504,14,9,7,1,7,2,13,7,1,7,3,17,7,3,7,4,19,7,4,7,5,23,7,6,7,5,27,       5P     43
7,2,7,6,41,7,7,7,8,43,7,9,7,7,47,7,9,7,10,49,7,10,7,8,63,7,8,7,        5P     44
10,67,7,5,7,2,81,7,7,7,9,107,7,4,7,1;                                  5P     45
502,10,-.995522014377563D0,2.23992809901151D-2,                        7P     46
-9.72432257529843D-2,-.995522014377563D0,1.43649696694468D-2,          7P     47
-.121951275981092D0,-.898278788624579D0,2.23992809901142D-2,           7P     48
0.0D0,-.995522014377563D0,2.23992809901151D-2,                         7P     49
9.72432257529843D-2,-.995522014377563D0,1.43649696694468D-2,           7P     50
.121951275981092D0,-.873570738396471D0,1.43649696694457D-2,            7P     51
0.0D0,-.842022014377563D0,-5.63503033055425D-3,0.0D0,                  7P     52
-.842022014377563D0,1.43649696694457D-2,0.0D0,                         7P     53
-1.14902201437756D0,-5.63503033055157D-3,-1.87977075311735D-17,        7P     54
-1.14902201437756D0,1.43649696694484D-2,-1.87977075311735D-17;         7P     55
100,0.0D0,0.0D0,0.0D0,-4.86216128764911D-2,-.107517155660335D0,        9P     56
-2.39135626483834D-2,-.115551466981003D0;                              9P     57
124,0.0D0,0.0D0,1.0D0,-.995522014377562D0,0.0D0,1.0D0,0.0D0,          11P     58
.12991643665045D0,-1.0D0,0.0D0,0.0D0,-.145864838629475D0;             11P     59
100,0.0D0,0.0D0,0.0D0,1.54875378378083D-16,-9.72432257529843D-2,      13P     60
9.72432257529843D-2,-2.38177210314311D-17;                            13P     61
124,1.0D0,0.0D0,0.0D0,-.995522014377563D0,0.0D0,0.0D0,-1.0D0,         15P     62
2.23992809901151D-2,0.0D0,1.0D0,0.0D0,0.0D0;                          15P     63
100,0.0D0,0.0D0,0.0D0,9.72432257529843D-2,0.0D0,                      17P     64
1.78693099409514D-16,9.72432257529843D-2;                             17P     65
100,0.0D0,0.0D0,0.0D0,-4.86216128764911D-2,-.107517155660335D0,       19P     66
-2.39135626483834D-2,-.115551466981003D0;                             19P     67
124,0.0D0,0.0D0,-1.0D0,-.995522014377562D0,0.0D0,1.0D0,0.0D0,         21P     68
.12991643665045D0,1.0D0,0.0D0,0.0D0,.145864838629475D0;               21P     69
100,0.0D0,0.0D0,0.0D0,.121951275981092D0,0.0D0,                       23P     70
7.467361989109D-18,.121951275981092D0;                                23P     71
124,1.0D0,0.0D0,0.0D0,-.995522014377563D0,0.0D0,0.0D0,-1.0D0,         25P     72
1.43649696694468D-2,0.0D0,1.0D0,0.0D0,0.0D0;                          25P     73
100,0.0D0,0.0D0,0.0D0,-2.2402085967327D-17,-.121951275981092D0,       27P     74
.121951275981092D0,-2.9869447956436D-17;                              27P     75
508,6,0,5,1,0,0,0,5,2,1,0,0,5,3,1,0,0,5,4,1,0,0,5,5,0,0,0,5,6,0,      29P     76
0;                                                                    29P     77
510,3,1,1,29;                                                         31P     78
116,-.995522014377563D0,4.36496966944708D-3,0.0D0,0;                  33P     79
123,-8.74191357972566D-15,-1.0D0,0.0D0;                               35P     80
192,33,35,.1535D0,39;                                                 37P     81
123,1.0D0,0.0D0,0.0D0;                                                39P     82
110,-.842022014377563D0,-5.63503033055425D-3,0.0D0,                   41P     83
-.842022014377563D0,1.43649696694457D-2,0.0D0;                        41P     84
100,0.0D0,0.0D0,0.0D0,-.1535D0,1.87983283669119D-17,.1535D0,          43P     85
-3.75966567338238D-17;                                                43P     86
124,1.0D0,0.0D0,0.0D0,-.995522014377563D0,0.0D0,0.0D0,-1.0D0,         45P     87
-5.63503033055291D-3,0.0D0,1.0D0,0.0D0,0.0D0;                         45P     88
110,-1.14902201437756D0,-5.63503033055157D-3,                         47P     89
-1.87977075311735D-17,-1.14902201437756D0,1.43649696694484D-2,        47P     90
-1.87977075311735D-17;                                                47P     91
100,0.0D0,0.0D0,0.0D0,-.1535D0,1.87983283669119D-17,.1535D0,          49P     92
-3.75966567338237D-17;                                                49P     93
508,4,0,5,7,0,0,0,5,8,0,0,0,5,9,1,0,0,5,10,1,0;                       51P     94
510,37,1,1,51;                                                        53P     95
116,-.857796376387017D0,1.43649696694457D-2,0.0D0,0;                  55P     96
123,0.0D0,1.0D0,0.0D0;                                                57P     97
190,55,57,61;                                                         59P     98
123,0.0D0,0.0D0,1.0D0;                                                61P     99
100,0.0D0,0.0D0,0.0D0,.1535D0,0.0D0,-.1535D0,                         63P    100
1.87983283669119D-17;                                                 63P    101
508,2,0,5,11,0,0,0,5,10,0,0;                                          65P    102
100,0.0D0,0.0D0,0.0D0,7.467361989109D-18,.121951275981092D0,          67P    103
-2.2402085967327D-17,-.121951275981092D0;                             67P    104
508,3,0,5,5,1,0,0,5,12,1,0,0,5,6,1,0;                                 69P    105
510,59,2,1,65,69;                                                     71P    106
116,-.995522014377563D0,4.36496966944708D-3,0.0D0,0;                  73P    107
123,-8.74191357972566D-15,-1.0D0,0.0D0;                               75P    108
192,73,75,.1535D0,79;                                                 77P    109
123,1.0D0,0.0D0,0.0D0;                                                79P    110
100,0.0D0,0.0D0,0.0D0,.1535D0,0.0D0,-.1535D0,                         81P    111
1.87983283669119D-17;                                                 81P    112
508,4,0,5,7,1,0,0,5,11,1,0,0,5,9,0,0,0,5,13,0,0;                      83P    113
510,77,1,1,83;                                                        85P    114
116,-.918772014377563D0,-5.63503033055425D-3,0.0D0,0;                 87P    115
123,0.0D0,-1.0D0,0.0D0;                                               89P    116
190,87,89,93;                                                         91P    117
123,0.0D0,0.0D0,-1.0D0;                                               93P    118
508,2,0,5,13,1,0,0,5,8,1,0;                                           95P    119
510,91,1,1,95;                                                        97P    120
116,-.995522014377563D0,-.192635030330554D0,0.0D0,0;                  99P    121
196,99,.236000000000002D0,103,105;                                   101P    122
123,0.0D0,0.0D0,1.0D0;                                               103P    123
123,1.0D0,0.0D0,0.0D0;                                               105P    124
100,0.0D0,0.0D0,0.0D0,1.78693099409514D-16,9.72432257529843D-2,      107P    125
1.54875378378083D-16,-9.72432257529843D-2;                           107P    126
508,3,0,5,3,0,0,0,5,2,0,0,0,5,14,0,0;                                109P    127
510,101,1,1,109;                                                     111P    128
128,2,8,2,2,0,1,0,0,0,1.14609620038852D0,1.14609620038852D0,         113P    129
1.14609620038852D0,1.99549645320128D0,1.99549645320128D0,            113P    130
1.99549645320128D0,0.0D0,0.0D0,0.0D0,1.5707963267949D0,              113P    131
1.5707963267949D0,3.14159265358979D0,3.14159265358979D0,             113P    132
4.71238898038469D0,4.71238898038469D0,6.28318530717959D0,            113P    133
6.28318530717959D0,6.28318530717959D0,1.0D0,.911162336104525D0,      113P    134
1.0D0,.707106781186548D0,.644289066621286D0,.707106781186548D0,      113P    135
1.0D0,.911162336104525D0,1.0D0,.707106781186548D0,                   113P    136
.644289066621286D0,.707106781186548D0,1.0D0,.911162336104525D0,      113P    137
1.0D0,.707106781186548D0,.644289066621286D0,.707106781186548D0,      113P    138
1.0D0,.911162336104525D0,1.0D0,.707106781186548D0,                   113P    139
.644289066621286D0,.707106781186548D0,1.0D0,.911162336104525D0,      113P    140
1.0D0,-.995522014377563D0,2.23992809901159D-2,                       113P    141
.194486451505968D0,-.995522014377563D0,4.11522625487944D-4,          113P    142
.145864838629475D0,-.995522014377563D0,2.23992809901159D-2,          113P    143
9.72432257529828D-2,-1.19000846588353D0,2.23992809901176D-2,         113P    144
.194486451505968D0,-1.14138685300704D0,4.11522625489219D-4,          113P    145
.145864838629475D0,-1.09276524013055D0,2.23992809901168D-2,          113P    146
9.72432257529828D-2,-1.19000846588353D0,2.23992809901176D-2,         113P    147
0.0D0,-1.14138685300704D0,4.11522625489212D-4,                       113P    148
-6.06592108468422D-32,-1.09276524013055D0,2.23992809901168D-2,       113P    149
0.0D0,-1.19000846588353D0,2.23992809901176D-2,                       113P    150
-.194486451505968D0,-1.14138685300704D0,4.11522625489205D-4,         113P    151
-.145864838629475D0,-1.09276524013055D0,2.23992809901168D-2,         113P    152
-9.72432257529828D-2,-.995522014377563D0,2.23992809901159D-2,        113P    153
-.194486451505968D0,-.995522014377563D0,4.1152262548793D-4,          113P    154
-.145864838629475D0,-.995522014377563D0,2.23992809901159D-2,         113P    155
-9.72432257529828D-2,-.801035562871595D0,2.23992809901142D-2,        113P    156
-.194486451505968D0,-.849657175748088D0,4.11522625486655D-4,         113P    157
-.145864838629475D0,-.89827878862458D0,2.23992809901151D-2,          113P    158
-9.72432257529828D-2,-.801035562871595D0,2.23992809901142D-2,        113P    159
0.0D0,-.849657175748088D0,4.11522625486662D-4,                       113P    160
6.06592108468422D-32,-.89827878862458D0,2.23992809901151D-2,         113P    161
0.0D0,-.801035562871595D0,2.23992809901142D-2,                       113P    162
.194486451505968D0,-.849657175748088D0,4.11522625486669D-4,          113P    163
.145864838629475D0,-.89827878862458D0,2.23992809901151D-2,           113P    164
9.72432257529828D-2,-.995522014377563D0,2.23992809901159D-2,         113P    165
.194486451505968D0,-.995522014377563D0,4.11522625487944D-4,          113P    166
.145864838629475D0,-.995522014377563D0,2.23992809901159D-2,          113P    167
9.72432257529828D-2,1.14609620038852D0,1.99549645320128D0,0.0D0,     113P    168
6.28318530717959D0;                                                  113P    169
508,4,0,5,1,1,0,0,5,12,0,0,0,5,4,0,0,0,5,14,1,0;                     115P    170
510,113,1,1,115;                                                     117P    171
514,7,31,1,53,1,71,1,85,1,97,1,111,1,117,1;                          119P    172
186,119,1,0;                                                         121P    173
314,75.2941012382507D0,75.2941012382507D0,75.2941012382507D0,;       123P    174
S      1G      4D    124P    174                                        T      1
